I Think I Lost My Headache

Tuning - C F Bb Eb

intro:
----------------------------------|
---------13--------11-------------|
---12--------12--------12-10-12---|
----------------------------------|

fill 1:
---------------|
---------------|
---7-8-7-4-6---|
---------------|

riff 1:
----------------------------|
-------7-5--5-7-------------|
---0-0----------7-8-7-4-6---|
----------------------------|

fill 2:
-----------------|
-----------------|
---7-8-7-4-6-4---|
-----------------|

fill 3:
--------------------|
-----5-7-5--5-5-8---|
---0----------------|
--------------------|

chorus riff:
-------------------------------|
--------14--13----13-----------|
---12----------11-----8--8br---|
-------------------------------|

intro riff

guitar break

fill 1 1x

riff 1:
You know why
They called and just let it ring
No reply

fill 2 1x

riff 1:
The door is open I swear
Ainít no use in pickin up
You know why

fill 3 1x

chorus:
Itís all my head I know
So they tell me so
Until my head explodes
Into my head it goes

guitar break

fill 2 1x

riff 1:
Tastes so good
Oh, but I knew it would
Tastes so good

fill 2 1x

riff 1:
Burn like a match house
Medicate just to make you soft
Love is blind
Catch and release me
What the hell were they thinking of
You know why

fill 3 1x

chorus riff:
Itís all my head I know
So they tell me so
Until my head explodes
Into my head it goes

intro riff forever