X===============================PLEASE NOTE=====================================
X This tab belongs to its author and represents his interpretation of the song.
X You may only use this tab for private study, scholarship, or research.
X Do not change, deface, mutilate, or in any other way alter this tab.
X You must email the author first if you want to use this tab on your site.
X===============================================================================

Kyuss: Freedom Run
From the album: 'Blues For The Red Sun' (Dali)
1992 Dali Records
Lyrics by J. Homme
Music by Kyuss
Transcribed by joel (j_sorensson@hotmail.com)

Tuning: Down 2 Whole Steps to C (C-F-Bb-Eb)
Can also be played in Drop-D, wich is way easier.
Notes: 'Freedom Run' is track #8 on 'Blues For The Red Sun'

Intro:
eb----------------
bb----------------
f--0---/10p9-10p9-
c-----------------

Verse:
eb--------------------------------------------------------
bb--------------------------------------------------------
f--0-0-0-0-3--0-0-0-/10p9-10p9--0-0-0-0-3--0-0-0-0-0-0----
c------------------------------------------------------3--

eb-------------------------------------------------------------
bb-------------------------------------------------------------
f--0-0-0-0-3--0-0-0-/10p9-10p9--0-3-2-0-----0-3-2-0-----0-0-3--
c---------------------------------------3-2---------3-2--------

Chorus:
eb------------------------------------
bb------------------------------------
f--0-0-0-3-0-/10-10-10-10-10-10-10-10-
c-------------------------------------

Break:
fb---------------------------------------------------------
bb---------------------------------------------------------
f---------------------------0-3-2-0-----0-3-2-0-----0-0-3--
c--3p2-3----3----3p2-3--------------3-2---------3-2--------

Ending:
eb---------------------- --------------------------------
bb---------------------- --------------------------------
f--0-0--0-0--0-0--0-0--- -0-3-2-0-----0-3-2-0-----0-0-3--
c----------------------- ---------3-2---------3-2--------

.run. questions? comments? corrections? pics of cheese? mail me.