Here is my interpretation of In The Fade
Tuning: C F Bb Eb
Verse
-------------------------------|
--7-7-7-----------------------|
---------7h9-7h9-------------|
--------------------------------|

Improvisation 1
-------------------------------|
--7-7-7-----------------------|
---------7h9-7h9-7----------|
----------------------7--------|

Improvisation 2
-7-7-7----------------------------|
----------7h9-7h9-9p7--9p7--------|
---------------------------9\---9\|
----------------------------------|
Chorus
-----------------------------------|
-------------77777-4444--------|
-55555555----------------------|
-----------------------------------|

-----------------------------------|
--6--8-----66--88---------------|
---------4-------------------------|
-----------------------------------|

Ending

----------------------------------------------------------------|
-------------------------------------------------------------|
--888888888886888888888888888-------------------|
--------------------------------------------------------------|

Feel Good Hit of the Summer Reprise

-----------------------------------|
-----------------------------------|
-55555555555555555Ö..----|
-----------------------------------|
and so on

Hope itís right
Alex Peters