You Can't Quit Me Baby

Tuning - C F Bb Eb

riff 1:
--------------------------|
-------7----7-------5h7---|
--------------------------|
---5-5----5---5-5-5-------|

riff 2:
-----------------------|
-------7---7-------7---|
-----------------------|
---5-5---5---5-5-5-----|

riff 3:
--------------------------|
-------7---7--------------|
--------------------5h7---|
---5-5---5---5-5-5--------|

fill 1:
---------------------|
---5-5-5-5-5-5-5-5---|
---------------------|
---------------------|

riff 1 2x

riff 2 1x

riff 3 1x

riff 1 3x

riff 3 1x

riff 1:
Itís a mistake, but who knows
Followed you home, crawled in your window
This life is a trip when youíre psycho in love
And I know

Followed your friends, you were not there
Slashed and I cut, I bled in the sink
Heard what you said and youíre laughing baby
Slashed and I cut, and I do it for you
I want you to notice

fill 1:
when Iím not around

riff 1:
Wherever you are

riff 4:
---5-5-5-5-5-5-5-5---|
---------------------|
---------------------|
---------------------|

2:10
riff 4 1x

riff 1 1x

riff 4 1x

riff 1 8x

chorus riff:
-------------------------------------5-5-5-5-5-5-5-5-5-5-5-5---|
---------------------------------------------------------------|
---------------------------------------------------------------|
---5-5-5-5-5-5-5-5--7-7-7-7-7-7-7-7----------------------------|

2:43
chorus riff with some added stuff that I can't hear

chorus riff:
Youíre solid gold
Iíll see you in hell

3:52
riff 1 4x

riff 5: 3x
--------------------------------------------------|
---10-10-10-10-10-10-10---------------------------|
------------------------12-12-12-12-12-12-12-12---|
--------------------------------------------------|

4th x:
---------------------------15-12---------------------------|
---10-10-10-10-10-10-10-10---------------------------------|
---------------------------------12-12-12-12-12-12-12-12---|
-----------------------------------------------------------|

4:02
riff 5 1x

riff 1 16x

5:10
speed up

riff 1 16x

play random notes till the end