Auto Pilot

Tuning - C F Bb Eb

riff 1:
-----------------------------------|
---------------4-4---6-6-6-6-6-6---|
---6-6---4/6-6---------------------|
-----------------------------------|

chorus riff:
---------------------------------------------------------------------|
---------------------------------------------------------------------|
---6-6-6-6-6-6-6-6-----------------4-4-4-4-4-4-4-4-------------------|
-------------------7-7-7-7-7-7-7-7-----------------4-4-4-4-4-4-4-4---|

riff 2:
---------------------------------------------------------------|
---8-8-8-8-8-8-8-8--9-9-9-9-9-9-9-9--10-10-10-10-10-10-10-10---|
---------------------------------------------------------------|
---------------------------------------------------------------|

riff 1:
Saw you down there on the marble slab
The best trip that Iíve ever had
High up in a jet plane, pass it around
My drinks on empty, need another round

chorus riff:
I wanna fly, wanna ride with you
Is this the best that you can do?
I wanna fly, wanna ride with you
High up in a jet plane with you

riff 1:
When we arrive in the middle of nowhere
Donít act like you know, I been here so many times
I never seen you before
But now that I have, I donít wanna see you no more

High up in a jet plane with you
High up in a jet plane with you

chorus riff:
I wanna fly, wanna ride with you
Is this the best that you can do?
I wanna fly, wanna ride with you
High up in a jet plane with you

no bass:
Ah-ah, auto pilot no control
Ah-ah, ahh
Ah-ah, auto pilot no control
Ah-ah, ahh

riff 1:
High up in a jet plane with you
High up in a jet plane with you

chorus riff:
I wanna fly, wanna ride with you
Is this the best that you can do?
I wanna fly, wanna ride with you
High up in a jet plane with you

play until 3:35, then play riff 3 4x